  0
SECTION
  2
HEADER
  9
$ACADVER
  1
AC1014
  9
$ACADMAINTVER
 70
     5
  9
$DWGCODEPAGE
  3
ANSI_1252
  9
$INSBASE
 10
407.9
 20
1480.428827
 30
0.0
  9
$EXTMIN
 10
251.927921
 20
1270.117317
 30
-0.000019
  9
$EXTMAX
 10
546.328984
 20
1586.98499
 30
0.000013
  9
$LIMMIN
 10
0.0
 20
0.0
  9
$LIMMAX
 10
3360.0
 20
2376.0
  9
$ORTHOMODE
 70
     1
  9
$REGENMODE
 70
     1
  9
$FILLMODE
 70
     1
  9
$QTEXTMODE
 70
     0
  9
$MIRRTEXT
 70
     0
  9
$DRAGMODE
 70
     2
  9
$LTSCALE
 40
1.0
  9
$OSMODE
 70
     0
  9
$ATTMODE
 70
     1
  9
$TEXTSIZE
 40
3.5
  9
$TRACEWID
 40
0.05
  9
$TEXTSTYLE
  7
ROMANS
  9
$CLAYER
  8
035-DWG
  9
$CELTYPE
  6
BYLAYER
  9
$CECOLOR
 62
   256
  9
$CELTSCALE
 40
1.0
  9
$DELOBJ
 70
     1
  9
$DISPSILH
 70
     0
  9
$DIMSCALE
 40
8.0
  9
$DIMASZ
 40
2.5
  9
$DIMEXO
 40
1.5
  9
$DIMDLI
 40
5.0
  9
$DIMRND
 40
0.0
  9
$DIMDLE
 40
0.0
  9
$DIMEXE
 40
1.0
  9
$DIMTP
 40
0.0
  9
$DIMTM
 40
0.0
  9
$DIMTXT
 40
3.0
  9
$DIMCEN
 40
-2.0
  9
$DIMTSZ
 40
0.0
  9
$DIMTOL
 70
     0
  9
$DIMLIM
 70
     0
  9
$DIMTIH
 70
     0
  9
$DIMTOH
 70
     0
  9
$DIMSE1
 70
     0
  9
$DIMSE2
 70
     0
  9
$DIMTAD
 70
     1
  9
$DIMZIN
 70
     8
  9
$DIMBLK
  1

  9
$DIMASO
 70
     1
  9
$DIMSHO
 70
     1
  9
$DIMPOST
  1

  9
$DIMAPOST
  1

  9
$DIMALT
 70
     0
  9
$DIMALTD
 70
     2
  9
$DIMALTF
 40
25.4
  9
$DIMLFAC
 40
1.0
  9
$DIMTOFL
 70
     1
  9
$DIMTVP
 40
0.0
  9
$DIMTIX
 70
     0
  9
$DIMSOXD
 70
     0
  9
$DIMSAH
 70
     0
  9
$DIMBLK1
  1

  9
$DIMBLK2
  1

  9
$DIMSTYLE
  2
STANDAARD
  9
$DIMCLRD
 70
   256
  9
$DIMCLRE
 70
   256
  9
$DIMCLRT
 70
   256
  9
$DIMTFAC
 40
0.75
  9
$DIMGAP
 40
1.5
  9
$DIMJUST
 70
     0
  9
$DIMSD1
 70
     0
  9
$DIMSD2
 70
     0
  9
$DIMTOLJ
 70
     1
  9
$DIMTZIN
 70
     8
  9
$DIMALTZ
 70
     8
  9
$DIMALTTZ
 70
     8
  9
$DIMFIT
 70
     3
  9
$DIMUPT
 70
     0
  9
$DIMUNIT
 70
     2
  9
$DIMDEC
 70
     0
  9
$DIMTDEC
 70
     1
  9
$DIMALTU
 70
     2
  9
$DIMALTTD
 70
     2
  9
$DIMTXSTY
  7
ROMANS
  9
$DIMAUNIT
 70
     0
  9
$LUNITS
 70
     2
  9
$LUPREC
 70
     4
  9
$SKETCHINC
 40
0.1
  9
$FILLETRAD
 40
6.0
  9
$AUNITS
 70
     0
  9
$AUPREC
 70
     4
  9
$MENU
  1
wtb2
  9
$ELEVATION
 40
0.0
  9
$PELEVATION
 40
0.0
  9
$THICKNESS
 40
0.0
  9
$LIMCHECK
 70
     0
  9
$BLIPMODE
 70
     0
  9
$CHAMFERA
 40
0.0
  9
$CHAMFERB
 40
0.0
  9
$CHAMFERC
 40
0.0
  9
$CHAMFERD
 40
0.0
  9
$SKPOLY
 70
     0
  9
$TDCREATE
 40
2451578.409790035
  9
$TDUPDATE
 40
2452584.394580879
  9
$TDINDWG
 40
3.1205870139
  9
$TDUSRTIMER
 40
3.1205870139
  9
$USRTIMER
 70
     1
  9
$ANGBASE
 50
0.0
  9
$ANGDIR
 70
     0
  9
$PDMODE
 70
     3
  9
$PDSIZE
 40
0.0
  9
$PLINEWID
 40
0.0
  9
$COORDS
 70
     2
  9
$SPLFRAME
 70
     0
  9
$SPLINETYPE
 70
     6
  9
$SPLINESEGS
 70
     8
  9
$ATTDIA
 70
     0
  9
$ATTREQ
 70
     1
  9
$HANDLING
 70
     1
  9
$HANDSEED
  5
73
  9
$SURFTAB1
 70
     6
  9
$SURFTAB2
 70
     6
  9
$SURFTYPE
 70
     6
  9
$SURFU
 70
     6
  9
$SURFV
 70
     6
  9
$UCSNAME
  2

  9
$UCSORG
 10
0.0
 20
0.0
 30
0.0
  9
$UCSXDIR
 10
1.0
 20
0.0
 30
0.0
  9
$UCSYDIR
 10
0.0
 20
1.0
 30
0.0
  9
$PUCSNAME
  2

  9
$PUCSORG
 10
0.0
 20
0.0
 30
0.0
  9
$PUCSXDIR
 10
1.0
 20
0.0
 30
0.0
  9
$PUCSYDIR
 10
0.0
 20
1.0
 30
0.0
  9
$USERI1
 70
     0
  9
$USERI2
 70
     0
  9
$USERI3
 70
     0
  9
$USERI4
 70
     0
  9
$USERI5
 70
     0
  9
$USERR1
 40
0.0
  9
$USERR2
 40
0.0
  9
$USERR3
 40
0.0
  9
$USERR4
 40
0.0
  9
$USERR5
 40
0.0
  9
$WORLDVIEW
 70
     1
  9
$SHADEDGE
 70
     3
  9
$SHADEDIF
 70
    70
  9
$TILEMODE
 70
     1
  9
$MAXACTVP
 70
    16
  9
$PINSBASE
 10
0.0
 20
0.0
 30
0.0
  9
$PLIMCHECK
 70
     0
  9
$PEXTMIN
 10
1.000000E+20
 20
1.000000E+20
 30
1.000000E+20
  9
$PEXTMAX
 10
-1.000000E+20
 20
-1.000000E+20
 30
-1.000000E+20
  9
$PLIMMIN
 10
0.0
 20
0.0
  9
$PLIMMAX
 10
12.0
 20
9.0
  9
$UNITMODE
 70
     0
  9
$VISRETAIN
 70
     0
  9
$PLINEGEN
 70
     0
  9
$PSLTSCALE
 70
     0
  9
$TREEDEPTH
 70
  3020
  9
$PICKSTYLE
 70
     1
  9
$CMLSTYLE
  2
STANDARD
  9
$CMLJUST
 70
     0
  9
$CMLSCALE
 40
1.0
  9
$PROXYGRAPHICS
 70
     1
  9
$MEASUREMENT
 70
     0
  0
ENDSEC
  0
SECTION
  2
CLASSES
  0
CLASS
  1
LWPOLYLINE
  2
AcDbPolyline
  3
"AutoCAD"
 90
        0
280
     0
281
     1
  0
CLASS
  1
HATCH
  2
AcDbHatch
  3
"ACAD_SEDONA"
 90
        0
280
     0
281
     1
  0
CLASS
  1
ACMDATUMID
  2
AcmDatumId
  3
AutoCadMServices
 90
      255
280
     1
281
     1
  0
CLASS
  1
ACMFCFRAME
  2
AcmFCF
  3
AutoCadMServices
 90
      255
280
     1
281
     1
  0
CLASS
  1
AMLOADER
  2
AMLoader
  3
AMAcad
 90
        0
280
     0
281
     0
  0
ENDSEC
  0
SECTION
  2
TABLES
  0
TABLE
  2
VPORT
  5
12
100
AcDbSymbolTable
 70
     2
  0
VPORT
  5
72
100
AcDbSymbolTableRecord
100
AcDbViewportTableRecord
  2
*ACTIVE
 70
     0
 10
0.0
 20
0.0
 11
1.0
 21
1.0
 12
399.128452
 22
1428.551153
 13
0.0
 23
0.0
 14
20.0
 24
20.0
 15
40.0
 25
40.0
 16
0.0
 26
0.0
 36
1.0
 17
0.0
 27
0.0
 37
0.0
 40
320.434664
 41
1.650376
 42
50.0
 43
0.0
 44
0.0
 50
0.0
 51
0.0
 71
     0
 72
 20000
 73
     1
 74
     0
 75
     0
 76
     0
 77
     0
 78
     1
  0
ENDTAB
  0
TABLE
  2
LTYPE
  5
D
100
AcDbSymbolTable
 70
     1
  0
LTYPE
  5
E
100
AcDbSymbolTableRecord
100
AcDbLinetypeTableRecord
  2
BYBLOCK
 70
     0
  3

 72
    65
 73
     0
 40
0.0
  0
LTYPE
  5
F
100
AcDbSymbolTableRecord
100
AcDbLinetypeTableRecord
  2
BYLAYER
 70
     0
  3

 72
    65
 73
     0
 40
0.0
  0
LTYPE
  5
5
100
AcDbSymbolTableRecord
100
AcDbLinetypeTableRecord
  2
CONTINUOUS
 70
     0
  3
Solid line
 72
    65
 73
     0
 40
0.0
  0
ENDTAB
  0
TABLE
  2
LAYER
  5
A
100
AcDbSymbolTable
 70
     4
  0
LAYER
  5
4
100
AcDbSymbolTableRecord
100
AcDbLayerTableRecord
  2
0
 70
     0
 62
     8
  6
CONTINUOUS
  0
LAYER
  5
20
100
AcDbSymbolTableRecord
100
AcDbLayerTableRecord
  2
025-DWG
 70
     0
 62
     7
  6
CONTINUOUS
  0
LAYER
  5
1B
100
AcDbSymbolTableRecord
100
AcDbLayerTableRecord
  2
035-DWG
 70
     0
 62
     2
  6
CONTINUOUS
  0
LAYER
  5
2A
100
AcDbSymbolTableRecord
100
AcDbLayerTableRecord
  2
VHH-035
 70
     0
 62
     2
  6
CONTINUOUS
  0
ENDTAB
  0
TABLE
  2
STYLE
  5
B
100
AcDbSymbolTable
 70
     2
  0
STYLE
  5
C
100
AcDbSymbolTableRecord
100
AcDbTextStyleTableRecord
  2
STANDARD
 70
     0
 40
0.0
 41
1.0
 50
0.0
 71
     0
 42
15.0
  3
txt
  4

  0
STYLE
  5
1C
100
AcDbSymbolTableRecord
100
AcDbTextStyleTableRecord
  2
ROMANS
 70
     0
 40
0.0
 41
1.0
 50
0.0
 71
     0
 42
3.5
  3
romans
  4

  0
ENDTAB
  0
TABLE
  2
VIEW
  5
10
100
AcDbSymbolTable
 70
     0
  0
ENDTAB
  0
TABLE
  2
UCS
  5
11
100
AcDbSymbolTable
 70
     0
  0
ENDTAB
  0
TABLE
  2
APPID
  5
14
100
AcDbSymbolTable
 70
     1
  0
APPID
  5
15
100
AcDbSymbolTableRecord
100
AcDbRegAppTableRecord
  2
ACAD
 70
     0
  0
ENDTAB
  0
TABLE
  2
DIMSTYLE
  5
16
100
AcDbSymbolTable
 70
     1
  0
DIMSTYLE
105
1E
100
AcDbSymbolTableRecord
100
AcDbDimStyleTableRecord
  2
STANDAARD
 70
     0
  3

  4

  5

  6

  7

 40
8.0
 41
2.5
 42
1.5
 43
5.0
 44
1.0
 45
0.0
 46
0.0
 47
0.0
 48
0.0
140
3.0
141
-2.0
142
0.0
143
25.4
144
1.0
145
0.0
146
0.75
147
1.5
 71
     0
 72
     0
 73
     0
 74
     0
 75
     0
 76
     0
 77
     1
 78
     8
170
     0
171
     2
172
     1
173
     0
174
     0
175
     0
176
   256
177
   256
178
   256
270
     2
271
     0
272
     1
273
     2
274
     2
340
1C
275
     0
280
     0
281
     0
282
     0
283
     1
284
     8
285
     8
286
     8
287
     3
288
     0
  0
ENDTAB
  0
TABLE
  2
BLOCK_RECORD
  5
1
100
AcDbSymbolTable
 70
     0
  0
BLOCK_RECORD
  5
2
100
AcDbSymbolTableRecord
100
AcDbBlockTableRecord
  2
*MODEL_SPACE
  0
BLOCK_RECORD
  5
7
100
AcDbSymbolTableRecord
100
AcDbBlockTableRecord
  2
*PAPER_SPACE
  0
ENDTAB
  0
ENDSEC
  0
SECTION
  2
BLOCKS
  0
BLOCK
  5
3
100
AcDbEntity
  8
0
100
AcDbBlockBegin
  2
*MODEL_SPACE
 70
     0
 10
0.0
 20
0.0
 30
0.0
  3
*MODEL_SPACE
  1

  0
ENDBLK
  5
6
100
AcDbEntity
  8
0
100
AcDbBlockEnd
  0
BLOCK
  5
8
100
AcDbEntity
 67
     1
  8
0
100
AcDbBlockBegin
  2
*PAPER_SPACE
 70
     0
 10
0.0
 20
0.0
 30
0.0
  3
*PAPER_SPACE
  1

  0
ENDBLK
  5
9
100
AcDbEntity
 67
     1
  8
0
100
AcDbBlockEnd
  0
ENDSEC
  0
SECTION
  2
ENTITIES
  0
ARC
  5
1F
100
AcDbEntity
  8
025-DWG
100
AcDbCircle
 10
407.9
 20
1480.428827
 30
0.0
 40
103.55
100
AcDbArc
 50
184.986127
 51
175.013873
  0
ARC
  5
21
100
AcDbEntity
  8
035-DWG
100
AcDbCircle
 10
407.9
 20
1480.428827
 30
0.0
 40
106.55
100
AcDbArc
 50
184.845398
 51
175.154602
  0
ARC
  5
22
100
AcDbEntity
  8
025-DWG
100
AcDbCircle
 10
407.9
 20
1480.428827
 30
0.0
 40
98.75
100
AcDbArc
 50
185.22915
 51
174.77085
  0
CIRCLE
  5
23
100
AcDbEntity
  8
025-DWG
100
AcDbCircle
 10
407.9
 20
1480.428827
 30
0.0
 40
83.5
  0
CIRCLE
  5
24
100
AcDbEntity
  8
035-DWG
100
AcDbCircle
 10
407.9
 20
1480.428827
 30
0.0
 40
76.554607
  0
CIRCLE
  5
25
100
AcDbEntity
  8
025-DWG
100
AcDbCircle
 10
407.9
 20
1480.428827
 30
0.0
 40
72.554607
  0
CIRCLE
  5
26
100
AcDbEntity
  8
035-DWG
100
AcDbCircle
 10
407.9
 20
1480.428827
 30
0.0
 40
26.397274
  0
ARC
  5
27
100
AcDbEntity
  8
035-DWG
100
AcDbCircle
 10
407.9
 20
1462.28999
 30
0.0
 40
106.0
100
AcDbArc
 50
270.0
 51
3.162052
  0
ARC
  5
28
100
AcDbEntity
  8
035-DWG
100
AcDbCircle
 10
407.9
 20
1462.28999
 30
0.0
 40
112.0
100
AcDbArc
 50
270.0
 51
4.960042
  0
ARC
  5
29
100
AcDbEntity
  8
VHH-035
100
AcDbCircle
 10
407.9
 20
1364.428827
 30
0.0
 40
8.0
100
AcDbArc
 50
270.0
 51
327.581624
  0
LINE
  5
2B
100
AcDbEntity
  8
VHH-035
100
AcDbLine
 10
407.9
 20
1323.928827
 30
0.0
 11
416.77412
 21
1323.928827
 31
0.0
  0
ARC
  5
2C
100
AcDbEntity
  8
VHH-035
100
AcDbCircle
 10
407.9
 20
1299.694227
 30
0.0
 40
25.0
100
AcDbArc
 50
270.0
 51
298.273714
  0
ARC
  5
2D
100
AcDbEntity
  8
VHH-035
100
AcDbCircle
 10
407.9
 20
1295.878827
 30
0.0
 40
25.0
100
AcDbArc
 50
270.0
 51
298.273714
  0
ARC
  5
2E
100
AcDbEntity
  8
VHH-035
100
AcDbCircle
 10
407.9
 20
1314.428827
 30
0.0
 40
14.916049
100
AcDbArc
 50
311.529823
 51
90.0
  0
ARC
  5
2F
100
AcDbEntity
  8
VHH-035
100
AcDbCircle
 10
407.9
 20
1314.428827
 30
0.0
 40
16.0
100
AcDbArc
 50
308.549483
 51
90.0
  0
CIRCLE
  5
30
100
AcDbEntity
  8
035-DWG
100
AcDbCircle
 10
407.9
 20
1480.428827
 30
0.0
 40
23.0
  0
ARC
  5
31
100
AcDbEntity
  8
035-DWG
100
AcDbCircle
 10
407.9
 20
1462.28999
 30
0.0
 40
106.0
100
AcDbArc
 50
176.837948
 51
270.0
  0
ARC
  5
32
100
AcDbEntity
  8
035-DWG
100
AcDbCircle
 10
407.9
 20
1462.28999
 30
0.0
 40
112.0
100
AcDbArc
 50
175.319646
 51
270.0
  0
LINE
  5
33
100
AcDbEntity
  8
VHH-035
100
AcDbLine
 10
387.395261
 20
1358.292126
 30
0.0
 11
385.180585
 21
1376.329208
 31
0.0
  0
LINE
  5
34
100
AcDbEntity
  8
VHH-035
100
AcDbLine
 10
387.295079
 20
1367.944497
 30
0.0
 11
386.294655
 21
1376.092297
 31
0.0
  0
ARC
  5
35
100
AcDbEntity
  8
VHH-035
100
AcDbCircle
 10
398.9
 20
1282.961026
 30
0.0
 40
6.0
100
AcDbArc
 50
154.011378
 51
241.726286
  0
LINE
  5
36
100
AcDbEntity
  8
VHH-035
100
AcDbLine
 10
392.9
 20
1279.145627
 30
0.0
 11
392.9
 21
1282.961026
 31
0.0
  0
ARC
  5
37
100
AcDbEntity
  8
VHH-035
100
AcDbCircle
 10
398.9
 20
1279.145627
 30
0.0
 40
6.0
100
AcDbArc
 50
180.0
 51
241.726286
  0
ARC
  5
38
100
AcDbEntity
  8
VHH-035
100
AcDbCircle
 10
407.9
 20
1295.878827
 30
0.0
 40
25.0
100
AcDbArc
 50
241.726286
 51
270.0
  0
ARC
  5
39
100
AcDbEntity
  8
VHH-035
100
AcDbCircle
 10
407.9
 20
1299.694227
 30
0.0
 40
25.0
100
AcDbArc
 50
241.726286
 51
270.0
  0
LINE
  5
3A
100
AcDbEntity
  8
VHH-035
100
AcDbLine
 10
392.068846
 20
1320.228827
 30
0.0
 11
388.162576
 21
1352.04284
 31
0.0
  0
ARC
  5
3B
100
AcDbEntity
  8
VHH-035
100
AcDbCircle
 10
407.9
 20
1314.428827
 30
0.0
 40
14.916049
100
AcDbArc
 50
90.0
 51
228.470177
  0
ARC
  5
3C
100
AcDbEntity
  8
VHH-035
100
AcDbCircle
 10
407.9
 20
1314.428827
 30
0.0
 40
16.0
100
AcDbArc
 50
90.0
 51
231.450517
  0
ARC
  5
3D
100
AcDbEntity
  8
VHH-035
100
AcDbCircle
 10
399.96164
 20
1315.420006
 30
0.0
 40
5.0
100
AcDbArc
 50
156.505134
 51
172.882917
  0
POLYLINE
  5
3E
100
AcDbEntity
  8
VHH-035
100
AcDb2dPolyline
 66
     1
 10
0.0
 20
0.0
 30
0.0
 70
   128
  0
VERTEX
  5
3F
100
AcDbEntity
  8
VHH-035
100
AcDbVertex
100
AcDb2dVertex
 10
396.909106
 20
1315.408281
 30
0.0
 42
0.034471
 70
     2
 50
98.972631
  0
VERTEX
  5
40
100
AcDbEntity
  8
VHH-035
100
AcDbVertex
100
AcDb2dVertex
 10
396.305723
 20
1317.392015
 30
0.0
 42
0.311147
  0
VERTEX
  5
41
100
AcDbEntity
  8
VHH-035
100
AcDbVertex
100
AcDb2dVertex
 10
395.836595
 20
1317.715244
 30
0.0
 42
0.311147
  0
SEQEND
  5
42
100
AcDbEntity
  8
VHH-035
  0
ARC
  5
43
100
AcDbEntity
  8
VHH-035
100
AcDbCircle
 10
407.9
 20
1314.428827
 30
0.0
 40
13.0
100
AcDbArc
 50
133.04908
 51
220.756465
  0
ARC
  5
44
100
AcDbEntity
  8
VHH-035
100
AcDbCircle
 10
407.9
 20
1314.428827
 30
0.0
 40
16.90794
100
AcDbArc
 50
159.564525
 51
233.466917
  0
ARC
  5
45
100
AcDbEntity
  8
VHH-035
100
AcDbCircle
 10
353.057065
 20
1305.308852
 30
0.0
 40
45.0
100
AcDbArc
 50
334.011378
 51
12.969466
  0
LINE
  5
46
100
AcDbEntity
  8
VHH-035
100
AcDbLine
 10
392.068846
 20
1320.228827
 30
0.0
 11
392.98826
 21
1320.228827
 31
0.0
  0
ARC
  5
47
100
AcDbEntity
  8
VHH-035
100
AcDbCircle
 10
395.836595
 20
1317.213187
 30
0.0
 40
0.502056
100
AcDbArc
 50
20.866436
 51
156.505134
  0
LINE
  5
48
100
AcDbEntity
  8
VHH-035
100
AcDbLine
 10
407.9
 20
1323.928827
 30
0.0
 11
399.02588
 21
1323.928827
 31
0.0
  0
ARC
  5
49
100
AcDbEntity
  8
VHH-035
100
AcDbCircle
 10
407.9
 20
1364.428827
 30
0.0
 40
5.0
100
AcDbArc
 50
270.0
 51
90.0
  0
ARC
  5
4A
100
AcDbEntity
  8
VHH-035
100
AcDbCircle
 10
388.287625
 20
1368.066366
 30
0.0
 40
1.0
100
AcDbArc
 50
187.0
 51
227.445687
  0
ARC
  5
4B
100
AcDbEntity
  8
VHH-035
100
AcDbCircle
 10
407.9
 20
1364.428827
 30
0.0
 40
8.0
100
AcDbArc
 50
212.418376
 51
270.0
  0
ARC
  5
4C
100
AcDbEntity
  8
VHH-035
100
AcDbCircle
 10
400.977921
 20
1360.032827
 30
0.0
 40
0.2
100
AcDbArc
 50
32.418376
 51
76.749556
  0
ARC
  5
4D
100
AcDbEntity
  8
VHH-035
100
AcDbCircle
 10
407.9
 20
1389.428827
 30
0.0
 40
30.0
100
AcDbArc
 50
227.445687
 51
256.749556
  0
ARC
  5
4E
100
AcDbEntity
  8
VHH-035
100
AcDbCircle
 10
407.9
 20
1364.428827
 30
0.0
 40
5.0
100
AcDbArc
 50
90.0
 51
270.0
  0
LINE
  5
4F
100
AcDbEntity
  8
035-DWG
100
AcDbLine
 10
319.536283
 20
1471.428827
 30
0.0
 11
253.004392
 21
1471.428827
 31
0.0
  0
LINE
  5
50
100
AcDbEntity
  8
035-DWG
100
AcDbLine
 10
319.536283
 20
1489.428827
 30
0.0
 11
253.004392
 21
1489.428827
 31
0.0
  0
ELLIPSE
  5
51
100
AcDbEntity
  8
035-DWG
100
AcDbEllipse
 10
253.004392
 20
1480.428827
 30
0.0
 11
0.0
 21
9.0
 31
0.0
210
0.0
220
0.0
230
1.0
 40
0.098079
 41
0.0
 42
3.141592653589793
  0
LINE
  5
52
100
AcDbEntity
  8
VHH-035
100
AcDbLine
 10
384.8
 20
1379.428827
 30
0.0
 11
384.8
 21
1379.428827
 31
0.0
  0
ELLIPSE
  5
53
100
AcDbEntity
  8
035-DWG
100
AcDbEllipse
 10
319.536283
 20
1480.428827
 30
0.0
 11
0.0
 21
9.0
 31
0.0
210
0.0
220
0.0
230
-1.0
 40
0.098079
 41
0.0
 42
3.141592653589793
  0
LINE
  5
54
100
AcDbEntity
  8
035-DWG
100
AcDbLine
 10
311.180228
 20
1489.428827
 30
0.0
 11
311.180228
 21
1471.428827
 31
0.0
  0
LINE
  5
55
100
AcDbEntity
  8
VHH-035
100
AcDbLine
 10
428.404739
 20
1358.292126
 30
0.0
 11
430.619415
 21
1376.329208
 31
0.0
  0
LINE
  5
56
100
AcDbEntity
  8
VHH-035
100
AcDbLine
 10
428.504921
 20
1367.944497
 30
0.0
 11
429.505345
 21
1376.092297
 31
0.0
  0
LINE
  5
57
100
AcDbEntity
  8
VHH-035
100
AcDbLine
 10
422.9
 20
1279.145627
 30
0.0
 11
422.9
 21
1282.961026
 31
0.0
  0
ARC
  5
58
100
AcDbEntity
  8
VHH-035
100
AcDbCircle
 10
416.9
 20
1282.961026
 30
0.0
 40
6.0
100
AcDbArc
 50
298.273714
 51
25.988622
  0
ARC
  5
59
100
AcDbEntity
  8
VHH-035
100
AcDbCircle
 10
416.9
 20
1279.145627
 30
0.0
 40
6.0
100
AcDbArc
 50
298.273714
 51
0.0
  0
LINE
  5
5A
100
AcDbEntity
  8
VHH-035
100
AcDbLine
 10
423.731154
 20
1320.228827
 30
0.0
 11
427.637424
 21
1352.04284
 31
0.0
  0
ARC
  5
5B
100
AcDbEntity
  8
VHH-035
100
AcDbCircle
 10
419.963405
 20
1317.213187
 30
0.0
 40
0.502056
100
AcDbArc
 50
23.494866
 51
159.133564
  0
LINE
  5
5C
100
AcDbEntity
  8
VHH-035
100
AcDbLine
 10
423.731154
 20
1320.228827
 30
0.0
 11
422.81174
 21
1320.228827
 31
0.0
  0
ARC
  5
5D
100
AcDbEntity
  8
VHH-035
100
AcDbCircle
 10
407.9
 20
1314.428827
 30
0.0
 40
13.0
100
AcDbArc
 50
319.243535
 51
46.95092
  0
POLYLINE
  5
5E
100
AcDbEntity
  8
VHH-035
100
AcDb2dPolyline
 66
     1
 10
0.0
 20
0.0
 30
0.0
 70
   128
  0
VERTEX
  5
5F
100
AcDbEntity
  8
VHH-035
100
AcDbVertex
100
AcDb2dVertex
 10
418.890894
 20
1315.408281
 30
0.0
 42
-0.034471
 70
     2
 50
81.027369
  0
VERTEX
  5
60
100
AcDbEntity
  8
VHH-035
100
AcDbVertex
100
AcDb2dVertex
 10
419.494277
 20
1317.392015
 30
0.0
 42
-0.311147
  0
VERTEX
  5
61
100
AcDbEntity
  8
VHH-035
100
AcDbVertex
100
AcDb2dVertex
 10
419.963405
 20
1317.715244
 30
0.0
 42
-0.311147
  0
SEQEND
  5
62
100
AcDbEntity
  8
VHH-035
  0
ARC
  5
63
100
AcDbEntity
  8
VHH-035
100
AcDbCircle
 10
415.83836
 20
1315.420006
 30
0.0
 40
5.0
100
AcDbArc
 50
7.117083
 51
23.494866
  0
ARC
  5
64
100
AcDbEntity
  8
VHH-035
100
AcDbCircle
 10
462.742935
 20
1305.308852
 30
0.0
 40
45.0
100
AcDbArc
 50
167.030534
 51
205.988622
  0
ARC
  5
65
100
AcDbEntity
  8
VHH-035
100
AcDbCircle
 10
407.9
 20
1314.428827
 30
0.0
 40
16.90794
100
AcDbArc
 50
306.533083
 51
20.435475
  0
ARC
  5
66
100
AcDbEntity
  8
VHH-035
100
AcDbCircle
 10
407.9
 20
1389.428827
 30
0.0
 40
30.0
100
AcDbArc
 50
283.250444
 51
312.554313
  0
ARC
  5
67
100
AcDbEntity
  8
VHH-035
100
AcDbCircle
 10
414.822079
 20
1360.032827
 30
0.0
 40
0.2
100
AcDbArc
 50
103.250444
 51
147.581624
  0
ARC
  5
68
100
AcDbEntity
  8
VHH-035
100
AcDbCircle
 10
427.512375
 20
1368.066366
 30
0.0
 40
1.0
100
AcDbArc
 50
312.554313
 51
353.0
  0
LINE
  5
69
100
AcDbEntity
  8
VHH-035
100
AcDbLine
 10
431.0
 20
1379.428827
 30
0.0
 11
431.0
 21
1379.428827
 31
0.0
  0
LINE
  5
6A
100
AcDbEntity
  8
035-DWG
100
AcDbLine
 10
514.411805
 20
1483.281513
 30
0.0
 11
516.4
 21
1483.281513
 31
0.0
  0
LINE
  5
6B
100
AcDbEntity
  8
035-DWG
100
AcDbLine
 10
514.403153
 20
1477.269555
 30
0.0
 11
516.4
 21
1477.269555
 31
0.0
  0
LINE
  5
6C
100
AcDbEntity
  8
035-DWG
100
AcDbLine
 10
516.4
 20
1475.448399
 30
0.0
 11
516.4
 21
1483.281513
 31
0.0
  0
ARC
  5
6D
100
AcDbEntity
  8
035-DWG
100
AcDbCircle
 10
519.9
 20
1475.448399
 30
0.0
 40
3.5
100
AcDbArc
 50
180.0
 51
263.117571
  0
ENDSEC
  0
SECTION
  2
OBJECTS
  0
DICTIONARY
  5
1A
100
AcDbDictionary
  3
ACAD_GROUP
350
18
  3
ACAD_MLINESTYLE
350
19
  0
DICTIONARY
  5
18
102
{ACAD_REACTORS
330
1A
102
}
100
AcDbDictionary
  0
DICTIONARY
  5
19
102
{ACAD_REACTORS
330
1A
102
}
100
AcDbDictionary
  3
STANDARD
350
1D
  0
MLINESTYLE
  5
1D
102
{ACAD_REACTORS
330
19
102
}
100
AcDbMlineStyle
  2
STANDARD
 70
     0
  3

 62
     0
 51
90.0
 52
90.0
 71
     2
 49
0.5
 62
   256
  6
BYLAYER
 49
-0.5
 62
   256
  6
BYLAYER
  0
ENDSEC
  0
EOF
